  0
SECTION
  2
HEADER
  9
$ACADVER
  1
AC1015
  9
$ACADMAINTVER
 70
    20
  9
$DWGCODEPAGE
  3
ANSI_1252
  9
$INSBASE
 10
0.0
 20
0.0
 30
0.0
  9
$EXTMIN
 10
1612.233439322752
 20
935.8188910762542
 30
0.0
  9
$EXTMAX
 10
1614.923353249112
 20
936.2088910762542
 30
0.0
  9
$LIMMIN
 10
0.0
 20
0.0
  9
$LIMMAX
 10
420.0
 20
297.0
  9
$ORTHOMODE
 70
     0
  9
$REGENMODE
 70
     1
  9
$FILLMODE
 70
     1
  9
$QTEXTMODE
 70
     0
  9
$MIRRTEXT
 70
     1
  9
$LTSCALE
 40
1.0
  9
$ATTMODE
 70
     1
  9
$TEXTSIZE
 40
2.5
  9
$TRACEWID
 40
1.0
  9
$TEXTSTYLE
  7
SANINDUSA
  9
$CLAYER
  8
0
  9
$CELTYPE
  6
ByLayer
  9
$CECOLOR
 62
   256
  9
$CELTSCALE
 40
1.0
  9
$DISPSILH
 70
     0
  9
$DIMSCALE
 40
1.0
  9
$DIMASZ
 40
2.0
  9
$DIMEXO
 40
1.0
  9
$DIMDLI
 40
1.0
  9
$DIMRND
 40
0.0
  9
$DIMDLE
 40
0.0
  9
$DIMEXE
 40
1.0
  9
$DIMTP
 40
0.0
  9
$DIMTM
 40
0.0
  9
$DIMTXT
 40
2.0
  9
$DIMCEN
 40
0.0
  9
$DIMTSZ
 40
0.0
  9
$DIMTOL
 70
     0
  9
$DIMLIM
 70
     0
  9
$DIMTIH
 70
     0
  9
$DIMTOH
 70
     0
  9
$DIMSE1
 70
     0
  9
$DIMSE2
 70
     0
  9
$DIMTAD
 70
     1
  9
$DIMZIN
 70
     8
  9
$DIMBLK
  1

  9
$DIMASO
 70
     1
  9
$DIMSHO
 70
     1
  9
$DIMPOST
  1

  9
$DIMAPOST
  1

  9
$DIMALT
 70
     0
  9
$DIMALTD
 70
     3
  9
$DIMALTF
 40
0.03937007874016
  9
$DIMLFAC
 40
1.0
  9
$DIMTOFL
 70
     1
  9
$DIMTVP
 40
0.0
  9
$DIMTIX
 70
     0
  9
$DIMSOXD
 70
     0
  9
$DIMSAH
 70
     0
  9
$DIMBLK1
  1

  9
$DIMBLK2
  1

  9
$DIMSTYLE
  2
SANINDUSA
  9
$DIMCLRD
 70
   256
  9
$DIMCLRE
 70
   256
  9
$DIMCLRT
 70
   256
  9
$DIMTFAC
 40
1.0
  9
$DIMGAP
 40
1.0
  9
$DIMJUST
 70
     0
  9
$DIMSD1
 70
     0
  9
$DIMSD2
 70
     0
  9
$DIMTOLJ
 70
     0
  9
$DIMTZIN
 70
     8
  9
$DIMALTZ
 70
     0
  9
$DIMALTTZ
 70
     0
  9
$DIMUPT
 70
     0
  9
$DIMDEC
 70
     1
  9
$DIMTDEC
 70
     1
  9
$DIMALTU
 70
     2
  9
$DIMALTTD
 70
     3
  9
$DIMTXSTY
  7
SANINDUSA
  9
$DIMAUNIT
 70
     0
  9
$DIMADEC
 70
     1
  9
$DIMALTRND
 40
0.0
  9
$DIMAZIN
 70
     0
  9
$DIMDSEP
 70
    44
  9
$DIMATFIT
 70
     3
  9
$DIMFRAC
 70
     0
  9
$DIMLDRBLK
  1

  9
$DIMLUNIT
 70
     2
  9
$DIMLWD
 70
    -1
  9
$DIMLWE
 70
    -1
  9
$DIMTMOVE
 70
     0
  9
$LUNITS
 70
     2
  9
$LUPREC
 70
     4
  9
$SKETCHINC
 40
1.0
  9
$FILLETRAD
 40
3.0
  9
$AUNITS
 70
     0
  9
$AUPREC
 70
     0
  9
$MENU
  1
.
  9
$ELEVATION
 40
0.0
  9
$PELEVATION
 40
0.0
  9
$THICKNESS
 40
0.0
  9
$LIMCHECK
 70
     0
  9
$CHAMFERA
 40
10.0
  9
$CHAMFERB
 40
10.0
  9
$CHAMFERC
 40
20.0
  9
$CHAMFERD
 40
0.0
  9
$SKPOLY
 70
     0
  9
$TDCREATE
 40
2453913.442842882
  9
$TDUCREATE
 40
2453913.401176215
  9
$TDUPDATE
 40
2453977.663114502
  9
$TDUUPDATE
 40
2453977.621447836
  9
$TDINDWG
 40
0.0052235185
  9
$TDUSRTIMER
 40
0.0052235185
  9
$USRTIMER
 70
     1
  9
$ANGBASE
 50
0.0
  9
$ANGDIR
 70
     0
  9
$PDMODE
 70
     0
  9
$PDSIZE
 40
0.0
  9
$PLINEWID
 40
0.0
  9
$SPLFRAME
 70
     0
  9
$SPLINETYPE
 70
     6
  9
$SPLINESEGS
 70
     8
  9
$HANDSEED
  5
153D
  9
$SURFTAB1
 70
     6
  9
$SURFTAB2
 70
     6
  9
$SURFTYPE
 70
     6
  9
$SURFU
 70
     6
  9
$SURFV
 70
     6
  9
$UCSBASE
  2

  9
$UCSNAME
  2

  9
$UCSORG
 10
0.0
 20
0.0
 30
0.0
  9
$UCSXDIR
 10
1.0
 20
0.0
 30
0.0
  9
$UCSYDIR
 10
0.0
 20
1.0
 30
0.0
  9
$UCSORTHOREF
  2

  9
$UCSORTHOVIEW
 70
     0
  9
$UCSORGTOP
 10
0.0
 20
0.0
 30
0.0
  9
$UCSORGBOTTOM
 10
0.0
 20
0.0
 30
0.0
  9
$UCSORGLEFT
 10
0.0
 20
0.0
 30
0.0
  9
$UCSORGRIGHT
 10
0.0
 20
0.0
 30
0.0
  9
$UCSORGFRONT
 10
0.0
 20
0.0
 30
0.0
  9
$UCSORGBACK
 10
0.0
 20
0.0
 30
0.0
  9
$PUCSBASE
  2

  9
$PUCSNAME
  2

  9
$PUCSORG
 10
0.0
 20
0.0
 30
0.0
  9
$PUCSXDIR
 10
1.0
 20
0.0
 30
0.0
  9
$PUCSYDIR
 10
0.0
 20
1.0
 30
0.0
  9
$PUCSORTHOREF
  2

  9
$PUCSORTHOVIEW
 70
     0
  9
$PUCSORGTOP
 10
0.0
 20
0.0
 30
0.0
  9
$PUCSORGBOTTOM
 10
0.0
 20
0.0
 30
0.0
  9
$PUCSORGLEFT
 10
0.0
 20
0.0
 30
0.0
  9
$PUCSORGRIGHT
 10
0.0
 20
0.0
 30
0.0
  9
$PUCSORGFRONT
 10
0.0
 20
0.0
 30
0.0
  9
$PUCSORGBACK
 10
0.0
 20
0.0
 30
0.0
  9
$USERI1
 70
     0
  9
$USERI2
 70
     0
  9
$USERI3
 70
     0
  9
$USERI4
 70
     0
  9
$USERI5
 70
     0
  9
$USERR1
 40
0.0
  9
$USERR2
 40
0.0
  9
$USERR3
 40
0.0
  9
$USERR4
 40
0.0
  9
$USERR5
 40
0.0
  9
$WORLDVIEW
 70
     1
  9
$SHADEDGE
 70
     3
  9
$SHADEDIF
 70
    70
  9
$TILEMODE
 70
     1
  9
$MAXACTVP
 70
    64
  9
$PINSBASE
 10
0.0
 20
0.0
 30
0.0
  9
$PLIMCHECK
 70
     0
  9
$PEXTMIN
 10
1.000000000000000E+20
 20
1.000000000000000E+20
 30
1.000000000000000E+20
  9
$PEXTMAX
 10
-1.000000000000000E+20
 20
-1.000000000000000E+20
 30
-1.000000000000000E+20
  9
$PLIMMIN
 10
0.0
 20
0.0
  9
$PLIMMAX
 10
420.0
 20
297.0
  9
$UNITMODE
 70
     0
  9
$VISRETAIN
 70
     1
  9
$PLINEGEN
 70
     0
  9
$PSLTSCALE
 70
     1
  9
$TREEDEPTH
 70
  3020
  9
$CMLSTYLE
  2
Standard
  9
$CMLJUST
 70
     0
  9
$CMLSCALE
 40
20.0
  9
$PROXYGRAPHICS
 70
     1
  9
$MEASUREMENT
 70
     1
  9
$CELWEIGHT
370
    -1
  9
$ENDCAPS
280
     0
  9
$JOINSTYLE
280
     0
  9
$LWDISPLAY
290
     0
  9
$INSUNITS
 70
     6
  9
$HYPERLINKBASE
  1

  9
$STYLESHEET
  1
monochrome.ctb
  9
$XEDIT
290
     1
  9
$CEPSNTYPE
380
     0
  9
$PSTYLEMODE
290
     1
  9
$FINGERPRINTGUID
  2
{2CDFDFFA-9D5D-4C95-9CC7-4A9CC853575A}
  9
$VERSIONGUID
  2
{2E21E814-B9FD-405C-B2F1-D54BD4FB3309}
  9
$EXTNAMES
290
     1
  9
$PSVPSCALE
 40
0.0
  9
$OLESTARTUP
290
     0
  0
ENDSEC
  0
SECTION
  2
CLASSES
  0
CLASS
  1
ACDBDICTIONARYWDFLT
  2
AcDbDictionaryWithDefault
  3
ObjectDBX Classes
 90
        0
280
     0
281
     0
  0
CLASS
  1
ACDBPLACEHOLDER
  2
AcDbPlaceHolder
  3
ObjectDBX Classes
 90
        0
280
     0
281
     0
  0
CLASS
  1
LAYOUT
  2
AcDbLayout
  3
ObjectDBX Classes
 90
        0
280
     0
281
     0
  0
CLASS
  1
DICTIONARYVAR
  2
AcDbDictionaryVar
  3
ObjectDBX Classes
 90
        0
280
     0
281
     0
  0
CLASS
  1
DIMASSOC
  2
AcDbDimAssoc
  3
"AcDbDimAssoc|Product Desc:     AcDim ARX App For Dimension|Company:          Autodesk, Inc.|WEB Address:      www.autodesk.com"
 90
    32768
280
     0
281
     0
  0
CLASS
  1
TABLESTYLE
  2
AcDbTableStyle
  3
ObjectDBX Classes
 90
     2047
280
     0
281
     0
  0
CLASS
  1
SORTENTSTABLE
  2
AcDbSortentsTable
  3
ObjectDBX Classes
 90
    32768
280
     0
281
     0
  0
ENDSEC
  0
SECTION
  2
TABLES
  0
TABLE
  2
VPORT
  5
8
330
0
100
AcDbSymbolTable
 70
     2
  0
VPORT
  5
1535
330
8
100
AcDbSymbolTableRecord
100
AcDbViewportTableRecord
  2
*Active
 70
     0
 10
0.0
 20
0.0
 11
1.0
 21
1.0
 12
1613.578396285932
 22
936.0138910762541
 13
0.0
 23
0.0
 14
10.0
 24
10.0
 15
10.0
 25
10.0
 16
0.0
 26
0.0
 36
1.0
 17
0.0
 27
0.0
 37
0.0
 40
1.693998796652348
 41
1.593939393939393
 42
50.0
 43
0.0
 44
0.0
 50
0.0
 51
0.0
 71
     0
 72
   100
 73
     1
 74
     2
 75
     0
 76
     0
 77
     0
 78
     0
281
     0
 65
     1
110
0.0
120
0.0
130
0.0
111
1.0
121
0.0
131
0.0
112
0.0
122
1.0
132
0.0
 79
     0
146
0.0
  0
ENDTAB
  0
TABLE
  2
LTYPE
  5
5
330
0
100
AcDbSymbolTable
 70
     3
  0
LTYPE
  5
14
330
5
100
AcDbSymbolTableRecord
100
AcDbLinetypeTableRecord
  2
ByBlock
 70
     0
  3

 72
    65
 73
     0
 40
0.0
  0
LTYPE
  5
15
330
5
100
AcDbSymbolTableRecord
100
AcDbLinetypeTableRecord
  2
ByLayer
 70
     0
  3

 72
    65
 73
     0
 40
0.0
  0
LTYPE
  5
16
330
5
100
AcDbSymbolTableRecord
100
AcDbLinetypeTableRecord
  2
Continuous
 70
     0
  3
Solid line
 72
    65
 73
     0
 40
0.0
  0
LTYPE
  5
2D
330
5
100
AcDbSymbolTableRecord
100
AcDbLinetypeTableRecord
  2
DASHDOT
 70
     0
  3
Dash dot __ . __ . __ . __ . __ . __ . __ . __
 72
    65
 73
     4
 40
25.4
 49
12.7
 74
     0
 49
-6.349999999999999
 74
     0
 49
0.0
 74
     0
 49
-6.349999999999999
 74
     0
  0
LTYPE
  5
2E
330
5
100
AcDbSymbolTableRecord
100
AcDbLinetypeTableRecord
  2
HIDDEN
 70
     0
  3
Hidden __ __ __ __ __ __ __ __ __ __ __ __ __ _
 72
    65
 73
     2
 40
9.524999999999998
 49
6.349999999999999
 74
     0
 49
-3.174999999999999
 74
     0
  0
ENDTAB
  0
TABLE
  2
LAYER
  5
2
330
0
100
AcDbSymbolTable
 70
    16
  0
LAYER
  5
10
330
2
100
AcDbSymbolTableRecord
100
AcDbLayerTableRecord
  2
0
 70
     0
 62
     7
  6
Continuous
370
    -3
390
F
  0
LAYER
  5
2F
330
2
100
AcDbSymbolTableRecord
100
AcDbLayerTableRecord
  2
1
 70
     0
 62
     1
  6
Continuous
370
    -3
390
F
  0
LAYER
  5
30
330
2
100
AcDbSymbolTableRecord
100
AcDbLayerTableRecord
  2
2
 70
     0
 62
     2
  6
Continuous
370
    -3
390
F
  0
LAYER
  5
31
330
2
100
AcDbSymbolTableRecord
100
AcDbLayerTableRecord
  2
3
 70
     0
 62
     3
  6
Continuous
370
    -3
390
F
  0
LAYER
  5
32
330
2
100
AcDbSymbolTableRecord
100
AcDbLayerTableRecord
  2
4
 70
     0
 62
     4
  6
Continuous
370
    -3
390
F
  0
LAYER
  5
33
330
2
100
AcDbSymbolTableRecord
100
AcDbLayerTableRecord
  2
5
 70
     0
 62
     5
  6
Continuous
370
    -3
390
F
  0
LAYER
  5
34
330
2
100
AcDbSymbolTableRecord
100
AcDbLayerTableRecord
  2
6
 70
     0
 62
     6
  6
Continuous
370
    -3
390
F
  0
LAYER
  5
35
330
2
100
AcDbSymbolTableRecord
100
AcDbLayerTableRecord
  2
7
 70
     0
 62
     7
  6
Continuous
370
    -3
390
F
  0
LAYER
  5
36
330
2
100
AcDbSymbolTableRecord
100
AcDbLayerTableRecord
  2
cen
 70
     0
 62
     7
  6
DASHDOT
370
    -3
390
F
  0
LAYER
  5
37
330
2
100
AcDbSymbolTableRecord
100
AcDbLayerTableRecord
  2
hid
 70
     0
 62
     7
  6
HIDDEN
370
    -3
390
F
  0
LAYER
  5
5D6
330
2
100
AcDbSymbolTableRecord
100
AcDbLayerTableRecord
  2
hatch
 70
     0
 62
     9
  6
Continuous
370
    -3
390
F
  0
LAYER
  5
8AF
330
2
100
AcDbSymbolTableRecord
100
AcDbLayerTableRecord
  2
9
 70
     0
 62
     9
  6
Continuous
370
    -3
390
F
  0
LAYER
  5
8F8
330
2
100
AcDbSymbolTableRecord
100
AcDbLayerTableRecord
  2
leg fin
 70
     0
 62
     9
  6
Continuous
370
    -3
390
F
  0
LAYER
  5
91D
330
2
100
AcDbSymbolTableRecord
100
AcDbLayerTableRecord
  2
cotas
 70
     0
 62
     1
  6
Continuous
370
    -3
390
F
  0
LAYER
  5
92F
330
2
100
AcDbSymbolTableRecord
100
AcDbLayerTableRecord
  2
Defpoints
 70
     0
 62
     7
  6
Continuous
290
     0
370
    -3
390
F
  0
LAYER
  5
BA5
330
2
100
AcDbSymbolTableRecord
100
AcDbLayerTableRecord
  2
SANINDUSA
 70
     0
 62
     3
  6
Continuous
370
    -3
390
F
  0
ENDTAB
  0
TABLE
  2
STYLE
  5
3
330
0
100
AcDbSymbolTable
 70
     3
  0
STYLE
  5
11
330
3
100
AcDbSymbolTableRecord
100
AcDbTextStyleTableRecord
  2
Standard
 70
     0
 40
0.0
 41
1.0
 50
0.0
 71
     0
 42
2.5
  3
Avgardn.ttf
  4

1001
ACAD
1000
AvantGarde Bk BT
1071
       34
  0
STYLE
  5
2C
330
3
100
AcDbSymbolTableRecord
100
AcDbTextStyleTableRecord
  2

 70
     1
 40
0.0
 41
1.0
 50
0.0
 71
     0
 42
2.5
  3
ltypeshp.shx
  4

  0
STYLE
  5
91F
330
3
100
AcDbSymbolTableRecord
100
AcDbTextStyleTableRecord
  2
SANINDUSA
 70
     0
 40
0.0
 41
1.0
 50
0.0
 71
     0
 42
2.5
  3
verdana.TTF
  4

1001
ACAD
1000
Verdana
1071
       34
  0
ENDTAB
  0
TABLE
  2
VIEW
  5
6
330
0
100
AcDbSymbolTable
 70
     0
  0
ENDTAB
  0
TABLE
  2
UCS
  5
7
330
0
100
AcDbSymbolTable
 70
     0
  0
ENDTAB
  0
TABLE
  2
APPID
  5
9
330
0
100
AcDbSymbolTable
 70
     3
  0
APPID
  5
12
330
9
100
AcDbSymbolTableRecord
100
AcDbRegAppTableRecord
  2
ACAD
 70
     0
  0
APPID
  5
3A
330
9
100
AcDbSymbolTableRecord
100
AcDbRegAppTableRecord
  2
DCO15
 70
     0
  0
APPID
  5
151E
330
9
100
AcDbSymbolTableRecord
100
AcDbRegAppTableRecord
  2
ACAD_EXEMPT_FROM_CAD_STANDARDS
 70
     0
  0
ENDTAB
  0
TABLE
  2
DIMSTYLE
  5
A
330
0
100
AcDbSymbolTable
 70
     2
100
AcDbDimStyleTable
 71
     1
340
921
  0
DIMSTYLE
105
45
330
A
100
AcDbSymbolTableRecord
100
AcDbDimStyleTableRecord
  2
STANDARD
 70
     0
289
     0
340
11
  0
DIMSTYLE
105
921
330
A
100
AcDbSymbolTableRecord
100
AcDbDimStyleTableRecord
  2
SANINDUSA
 70
     0
 41
2.0
 42
1.0
 43
1.0
 44
1.0
 73
     0
 74
     0
 77
     1
 78
     8
140
2.0
141
0.0
143
0.03937007874016
147
1.0
171
     3
172
     1
176
   256
177
   256
178
   256
179
     1
271
     1
272
     1
274
     3
278
    44
283
     0
284
     8
340
91F
371
    -1
372
    -1
  0
ENDTAB
  0
TABLE
  2
BLOCK_RECORD
  5
1
330
0
100
AcDbSymbolTable
 70
   102
  0
BLOCK_RECORD
  5
1F
330
1
100
AcDbSymbolTableRecord
100
AcDbBlockTableRecord
  2
*Model_Space
340
22
  0
BLOCK_RECORD
  5
1B
330
1
100
AcDbSymbolTableRecord
100
AcDbBlockTableRecord
  2
*Paper_Space
340
1E
  0
BLOCK_RECORD
  5
23
330
1
100
AcDbSymbolTableRecord
100
AcDbBlockTableRecord
  2
*Paper_Space0
340
26
  0
BLOCK_RECORD
  5
919
330
1
100
AcDbSymbolTableRecord
100
AcDbBlockTableRecord
  2
_DotSmall
340
0
  0
BLOCK_RECORD
  5
922
330
1
100
AcDbSymbolTableRecord
100
AcDbBlockTableRecord
  2
base para cotas
340
0
310
2800000020000000200000000100080000000000000400000000000000000000000000000000000000000000000080000080000000808000800000008000800080800000C0C0C000C0DCC000F0CAA6000020400000206000002080000020A0000020C0000020E00000400000004020000040400000406000004080000040A0
310
000040C0000040E00000600000006020000060400000606000006080000060A0000060C0000060E00000800000008020000080400000806000008080000080A0000080C0000080E00000A0000000A0200000A0400000A0600000A0800000A0A00000A0C00000A0E00000C0000000C0200000C0400000C0600000C0800000C0
310
A00000C0C00000C0E00000E0000000E0200000E0400000E0600000E0800000E0A00000E0C00000E0E00040000000400020004000400040006000400080004000A0004000C0004000E00040200000402020004020400040206000402080004020A0004020C0004020E000404000004040200040404000404060004040800040
310
40A0004040C0004040E00040600000406020004060400040606000406080004060A0004060C0004060E00040800000408020004080400040806000408080004080A0004080C0004080E00040A0000040A0200040A0400040A0600040A0800040A0A00040A0C00040A0E00040C0000040C0200040C0400040C0600040C08000
310
40C0A00040C0C00040C0E00040E0000040E0200040E0400040E0600040E0800040E0A00040E0C00040E0E00080000000800020008000400080006000800080008000A0008000C0008000E00080200000802020008020400080206000802080008020A0008020C0008020E00080400000804020008040400080406000804080
310
008040A0008040C0008040E00080600000806020008060400080606000806080008060A0008060C0008060E00080800000808020008080400080806000808080008080A0008080C0008080E00080A0000080A0200080A0400080A0600080A0800080A0A00080A0C00080A0E00080C0000080C0200080C0400080C0600080C0
310
800080C0A00080C0C00080C0E00080E0000080E0200080E0400080E0600080E0800080E0A00080E0C00080E0E000C0000000C0002000C0004000C0006000C0008000C000A000C000C000C000E000C0200000C0202000C0204000C0206000C0208000C020A000C020C000C020E000C0400000C0402000C0404000C0406000C0
310
408000C040A000C040C000C040E000C0600000C0602000C0604000C0606000C0608000C060A000C060C000C060E000C0800000C0802000C0804000C0806000C0808000C080A000C080C000C080E000C0A00000C0A02000C0A04000C0A06000C0A08000C0A0A000C0A0C000C0A0E000C0C00000C0C02000C0C04000C0C06000
310
C0C08000C0C0A000F0FBFF00A4A0A000808080000000FF0000FF000000FFFF00FF000000FF00FF00FFFF0000FFFFFF00A4A4A4A4A4A4A4A4A4A4A4A4A4A4A4A4A4A4A4A4A4A4A4A4A4A4A4A4A4A4A4A4A4A4A4A4A4A4A4A4A4A4A4A4A4A4A4A4A4A4A4A4A4A4A4A4A4A4A4A4A4A4A4A4A4A4A4A4A4A4A4A4A4A4A4A4A4A4A4
310
A4A4A4A4A4A4A4A4A4A4A4A4A4A4A4A4A4A4A4A4A4A4A4A4A4A4A4A4A4A4A4A4A4A4A4A4A4A4A4A4A4A4A4A4A4A4A4A4A4A4A4A4A4A4A4A4A4A4A4A4A4A4A4A4A4A4A4A4A4A4A4A4A4A4A4A4A4A4A4A4A4A4A4A4A4A4A4A4A4A4A4A4A4A4A4A4A4A4A4A4A4A4A4A4A4A4A4A4A4A4A4A4A4A4A4A4A4A4A4A4A4A4A4A4A4A4A4
310
A4A4A4A4A4A4A4A4A4A4A4A4A4A4A4A4A4A4A4A4A4A4A4A4A4A4A4A4A4A4A4A4A4A4A4A4A4A4A4A4A4A4A4A4A4A4A4A4A4A4A4A4A4A4A4A4A4A4A4A4A4A4A4A4A4A4A4A4A4A4A4A4A4A4A4A4A4A4A4A4A4A4A4A4A4A4A4A4A4A4A4A4A4A4A4A4A4A4A4A4A4A4A4A4A4A4A4A4A4A4A4A4A4A4A4A4A4A4A4A4A4A4A4A4A4A4A4
310
A4A4A4A4A4A4A4A4A4A4A4A4A4A4A4A4A4A4A4A4A4A4A4A4A4A4A4A4A4A4A4A4A4A4A4A4A4A4A4A4A4A4A4A4A4A4A4A4A4A4A4A4A4A4A4A4A4A4A4A4A4A4A4A4A4A4A4A4A4A4A4A4A4A4A4A4A4A4A4A4A4A4A4A4A4A4A4A4A4A4A4A4A4A4A4A4A4A4A4A4A4A4A4A4A4A4A4A4A4A4A4A4A4A4A4A4F9F9F9F9F9F9F9F9F9F9F9
310
F9F9F9F9F9F9F9F9F9F9F9F9F9F9F9F9F9F9F9A4A4F9F9F9F9F9F9F9F9F9F9F9F9F9F9F9F9F9F9F9F9F9F9F9F9F9F9F9F9F9F9A4A4F9F9F9F9F9F9F9F9F9F9F9F9F9F9F9F9F9F9F9F9F9F9F9F9F9F9F9F9F9F9A4A4F9A4A4A4A4A4A4A4A4A4A4A4A4A4A4A4A4A4A4A4A4A4A4A4A4A4A4A4A4F9A4A4A4A4A4A4A4A4A4A4A4A4
310
A4A4A4A4A4A4A4A4A4A4A4A4A4A4A4A4A4A4A4A4A4A4A4A4A4A4A4A4A4A4A4A4A4A4A4A4A4A4A4A4A4A4A4A4A4A4A4A4A4A4A4A4A4A4A4A4A4A4A4A4A4A4A4A4A4A4A4A4A4A4A4A4A4A4A4A4A4A4A4A4A4A4A4A4A4A4A4A4A4A4A4A4A4A4A4A4A4A4A4A4A4A4A4A4A4A4A4A4A4A4A4A4A4A4A4A4A4A4A4A4A4A4A4A4A4A4A4
310
A4A4A4A4A4A4A4A4A4A4A4A4A4A4A4A4A4A4A4A4A4A4A4A4A4A4A4A4A4A4A4A4A4A4A4A4A4A4A4A4A4A4A4A4A4A4A4A4A4A4A4A4A4A4A4A4A4A4A4A4A4A4A4A4A4A4A4A4A4A4A4A4A4A4A4A4A4A4A4A4A4A4A4A4A4A4A4A4A4A4A4A4A4A4A4A4A4A4A4A4A4A4A4A4A4A4A4A4A4A4A4A4A4A4A4A4A4A4A4A4A4A4A4A4A4A4A4
310
A4A4A4A4A4A4A4A4A4A4A4A4A4A4A4A4A4A4A4A4A4A4A4A4A4A4A4A4A4A4A4A4A4A4A4A4A4A4A4A4A4A4A4A4A4A4A4A4A4A4A4A4A4A4A4A4A4A4A4A4A4A4A4A4A4A4A4A4A4A4A4A4A4A4A4A4A4A4A4A4A4A4A4A4A4A4A4A4A4A4A4A4A4A4A4A4A4A4A4A4A4A4A4A4A4A4A4A4A4A4A4A4A4A4A4A4A4A4A4A4A4A4A4A4A4A4A4
310
A4A4A4A4A4A4A4A4A4A4A4A4A4A4A4A4A4A4A4A4A4A4A4A4A4A4A4A4A4A4A4A4A4A4A4A4A4A4A4A4A4A4A4A4A4A4A4A4A4A4A4A4A4A4A4A4
1001
ACAD
1000
DesignCenter Data
1002
{
1070
     1
1070
     4
1002
}
  0
BLOCK_RECORD
  5
AA8
330
1
100
AcDbSymbolTableRecord
100
AcDbBlockTableRecord
  2
_CLOSED
340
0
  0
ENDTAB
  0
ENDSEC
  0
SECTION
  2
BLOCKS
  0
BLOCK
  5
20
330
1F
100
AcDbEntity
  8
0
100
AcDbBlockBegin
  2
*Model_Space
 70
     0
 10
0.0
 20
0.0
 30
0.0
  3
*Model_Space
  1

  0
ENDBLK
  5
21
330
1F
100
AcDbEntity
  8
0
100
AcDbBlockEnd
  0
BLOCK
  5
1C
330
1B
100
AcDbEntity
 67
     1
  8
0
100
AcDbBlockBegin
  2
*Paper_Space
 70
     0
 10
0.0
 20
0.0
 30
0.0
  3
*Paper_Space
  1

  0
ENDBLK
  5
1D
330
1B
100
AcDbEntity
 67
     1
  8
0
100
AcDbBlockEnd
  0
BLOCK
  5
24
330
23
100
AcDbEntity
 67
     1
  8
0
100
AcDbBlockBegin
  2
*Paper_Space0
 70
     0
 10
0.0
 20
0.0
 30
0.0
  3
*Paper_Space0
  1

  0
ENDBLK
  5
25
330
23
100
AcDbEntity
 67
     1
  8
0
100
AcDbBlockEnd
  0
BLOCK
  5
91B
330
919
100
AcDbEntity
  8
0
100
AcDbBlockBegin
  2
_DotSmall
 70
     0
 10
0.0
 20
0.0
 30
0.0
  3
_DotSmall
  1

  0
LWPOLYLINE
  5
91A
330
919
100
AcDbEntity
  8
0
  6
ByBlock
 62
     0
100
AcDbPolyline
 90
        2
 70
     1
 43
0.5
 10
-0.0625
 20
0.0
 42
1.0
 10
0.0625
 20
0.0
 42
1.0
  0
ENDBLK
  5
91C
330
919
100
AcDbEntity
  8
0
100
AcDbBlockEnd
  0
BLOCK
  5
92A
330
922
100
AcDbEntity
  8
0
100
AcDbBlockBegin
  2
base para cotas
 70
     0
 10
0.0
 20
0.0
 30
0.0
  3
base para cotas
  1

  0
LINE
  5
B36
330
922
100
AcDbEntity
  8
cotas
100
AcDbLine
 10
0.0
 20
-30.0
 30
0.0
 11
327.1260136525398
 21
-30.0
 31
0.0
  0
LINE
  5
B37
330
922
100
AcDbEntity
  8
cotas
100
AcDbLine
 10
0.0
 20
-25.0
 30
0.0
 11
327.1260136525398
 21
-25.0
 31
0.0
  0
LINE
  5
B38
330
922
100
AcDbEntity
  8
cotas
100
AcDbLine
 10
0.0
 20
-20.0
 30
0.0
 11
327.1260136525398
 21
-20.0
 31
0.0
  0
LINE
  5
B39
330
922
100
AcDbEntity
  8
cotas
100
AcDbLine
 10
0.0
 20
-15.0
 30
0.0
 11
327.1260136525398
 21
-15.0
 31
0.0
  0
LINE
  5
B3A
330
922
100
AcDbEntity
  8
cotas
100
AcDbLine
 10
0.0
 20
-10.0
 30
0.0
 11
327.1260136525398
 21
-10.0
 31
0.0
  0
LINE
  5
B3B
330
922
100
AcDbEntity
  8
cotas
100
AcDbLine
 10
0.0
 20
0.0
 30
0.0
 11
0.0
 21
-30.0
 31
0.0
  0
LINE
  5
B3C
330
922
100
AcDbEntity
  8
cotas
100
AcDbLine
 10
327.1260136525398
 20
-30.0
 30
0.0
 11
327.1260136525398
 21
0.0
 31
0.0
  0
ENDBLK
  5
92B
330
922
100
AcDbEntity
  8
0
100
AcDbBlockEnd
  0
BLOCK
  5
AAD
330
AA8
100
AcDbEntity
  8
0
100
AcDbBlockBegin
  2
_CLOSED
 70
     0
 10
0.0
 20
0.0
 30
0.0
  3
_CLOSED
  1

  0
LINE
  5
AA9
330
AA8
100
AcDbEntity
  8
0
100
AcDbLine
 10
-1.0
 20
0.166667
 30
0.0
 11
0.0
 21
0.0
 31
0.0
  0
LINE
  5
AAA
330
AA8
100
AcDbEntity
  8
0
100
AcDbLine
 10
0.0
 20
0.0
 30
0.0
 11
-1.0
 21
-0.166667
 31
0.0
  0
LINE
  5
AAB
330
AA8
100
AcDbEntity
  8
0
100
AcDbLine
 10
-1.0
 20
0.166667
 30
0.0
 11
-1.0
 21
-0.166667
 31
0.0
  0
LINE
  5
AAC
330
AA8
100
AcDbEntity
  8
0
100
AcDbLine
 10
0.0
 20
0.0
 30
0.0
 11
-1.0
 21
0.0
 31
0.0
  0
ENDBLK
  5
AAE
330
AA8
100
AcDbEntity
  8
0
100
AcDbBlockEnd
  0
ENDSEC
  0
SECTION
  2
ENTITIES
  0
LINE
  5
102F
330
1F
100
AcDbEntity
  8
SANINDUSA
100
AcDbLine
 10
1613.674395197366
 20
935.9568375826611
 30
0.0
 11
1613.034395197366
 21
935.9568375826611
 31
0.0
  0
LINE
  5
1032
330
1F
100
AcDbEntity
  8
SANINDUSA
100
AcDbLine
 10
1613.034395197366
 20
936.0518375826613
 30
0.0
 11
1613.674395197366
 21
936.0518375826613
 31
0.0
  0
ARC
  5
1033
330
1F
100
AcDbEntity
  8
SANINDUSA
100
AcDbCircle
 10
1613.034395197366
 20
935.9618375826613
 30
0.0
 40
0.005
100
AcDbArc
 50
180.0
 51
270.0
  0
LINE
  5
1037
330
1F
100
AcDbEntity
  8
SANINDUSA
100
AcDbLine
 10
1613.385110977597
 20
935.9177175826614
 30
0.0
 11
1613.354395197366
 21
935.9177175826614
 31
0.0
  0
LINE
  5
1039
330
1F
100
AcDbEntity
  8
SANINDUSA
100
AcDbLine
 10
1613.327510833169
 20
935.9257242311175
 30
0.0
 11
1613.381279561563
 21
935.9257242311175
 31
0.0
  0
LINE
  5
103A
330
1F
100
AcDbEntity
  8
SANINDUSA
100
AcDbLine
 10
1613.369146909487
 20
935.9328306706808
 30
0.0
 11
1613.339643485246
 21
935.9328306706808
 31
0.0
  0
LINE
  5
103E
330
1F
100
AcDbEntity
  8
SANINDUSA
100
AcDbLine
 10
1613.322679417135
 20
935.9207175826613
 30
0.0
 11
1613.322679417135
 21
935.9187175826614
 31
0.0
  0
LINE
  5
1040
330
1F
100
AcDbEntity
  8
SANINDUSA
100
AcDbLine
 10
1613.323679417135
 20
935.9177175826614
 30
0.0
 11
1613.354395197366
 21
935.9177175826614
 31
0.0
  0
ARC
  5
1041
330
1F
100
AcDbEntity
  8
SANINDUSA
100
AcDbCircle
 10
1613.323679417135
 20
935.9187175826614
 30
0.0
 40
0.0009999999999999
100
AcDbArc
 50
180.0
 51
270.0
  0
LINE
  5
1044
330
1F
100
AcDbEntity
  8
SANINDUSA
100
AcDbLine
 10
1613.327510833169
 20
935.9257242311175
 30
0.0
 11
1613.339643485246
 21
935.9328306706808
 31
0.0
  0
LINE
  5
1048
330
1F
100
AcDbEntity
  8
SANINDUSA
100
AcDbLine
 10
1613.3106683403
 20
935.9568375826611
 30
0.0
 11
1613.31345693833
 21
935.9301898705583
 31
0.0
  0
LWPOLYLINE
  5
104B
330
1F
100
AcDbEntity
  8
SANINDUSA
100
AcDbPolyline
 90
        9
 70
   128
 43
0.0
 10
1613.318250514566
 20
935.9257150473428
 10
1613.317365251426
 20
935.9258228097226
 10
1613.31651345482
 20
935.9260875173701
 10
1613.315722464949
 20
935.9265006739374
 10
1613.315017670296
 20
935.9270490182961
 10
1613.314421692724
 20
935.9277149501824
 10
1613.313953661387
 20
935.9284770951134
 10
1613.313628598733
 20
935.9293109904461
 10
1613.31345693833
 20
935.9301898705583
  0
LINE
  5
104F
330
1F
100
AcDbEntity
  8
SANINDUSA
100
AcDbLine
 10
1613.318229687038
 20
935.9257175826613
 30
0.0
 11
1613.327510833169
 21
935.9257175826613
 31
0.0
  0
ARC
  5
1057
330
1F
100
AcDbEntity
  8
SANINDUSA
100
AcDbCircle
 10
1613.317619942079
 20
935.9206949699018
 30
0.0
 40
0.0050595255879731
100
AcDbArc
 50
0.2560753906934179
 51
82.84056722552536
  0
LWPOLYLINE
  5
105A
330
1F
100
AcDbEntity
  8
SANINDUSA
100
AcDbPolyline
 90
        4
 70
   128
 43
0.0
 10
1613.339088109844
 20
935.9568375826611
 10
1613.339066922615
 20
935.956791605836
 10
1613.338874417885
 20
935.9563484389932
 10
1613.338678669813
 20
935.9558529109042
  0
LINE
  5
1060
330
1F
100
AcDbEntity
  8
SANINDUSA
100
AcDbLine
 10
1613.339643485246
 20
935.9351593489359
 30
0.0
 11
1613.339643485246
 21
935.9328306706808
 31
0.0
  0
LINE
  5
1063
330
1F
100
AcDbEntity
  8
SANINDUSA
100
AcDbLine
 10
1613.339643485246
 20
935.9351593489359
 30
0.0
 11
1613.338678669813
 21
935.9558529109042
 31
0.0
  0
LINE
  5
1067
330
1F
100
AcDbEntity
  8
SANINDUSA
100
AcDbLine
 10
1613.386110977597
 20
935.9187175826614
 30
0.0
 11
1613.386110977597
 21
935.9207175826613
 31
0.0
  0
ARC
  5
1068
330
1F
100
AcDbEntity
  8
SANINDUSA
100
AcDbCircle
 10
1613.385110977597
 20
935.9187175826614
 30
0.0
 40
0.0009999999999999
100
AcDbArc
 50
270.0
 51
0.0
  0
LINE
  5
1069
330
1F
100
AcDbEntity
  8
SANINDUSA
100
AcDbLine
 10
1613.390560707694
 20
935.9257175826613
 30
0.0
 11
1613.381279561563
 21
935.9257175826613
 31
0.0
  0
LWPOLYLINE
  5
106F
330
1F
100
AcDbEntity
  8
SANINDUSA
100
AcDbPolyline
 90
        4
 70
   128
 43
0.0
 10
1613.369702284888
 20
935.9568375826611
 10
1613.369723472117
 20
935.956791605836
 10
1613.369915976847
 20
935.9563484389932
 10
1613.37011172492
 20
935.9558529109042
  0
LINE
  5
1074
330
1F
100
AcDbEntity
  8
SANINDUSA
100
AcDbLine
 10
1613.381279561563
 20
935.9257242311175
 30
0.0
 11
1613.369146909487
 21
935.9328306706808
 31
0.0
  0
LINE
  5
1076
330
1F
100
AcDbEntity
  8
SANINDUSA
100
AcDbLine
 10
1613.369146909487
 20
935.9351593489359
 30
0.0
 11
1613.369146909487
 21
935.9328306706808
 31
0.0
  0
LINE
  5
1078
330
1F
100
AcDbEntity
  8
SANINDUSA
100
AcDbLine
 10
1613.369146909487
 20
935.9351593489359
 30
0.0
 11
1613.37011172492
 21
935.9558529109042
 31
0.0
  0
LINE
  5
107F
330
1F
100
AcDbEntity
  8
SANINDUSA
100
AcDbLine
 10
1613.398122054432
 20
935.9568375826611
 30
0.0
 11
1613.395333456403
 21
935.9301898705583
 31
0.0
  0
LWPOLYLINE
  5
1083
330
1F
100
AcDbEntity
  8
SANINDUSA
100
AcDbPolyline
 90
        9
 70
   128
 43
0.0
 10
1613.390539880166
 20
935.9257150473428
 10
1613.391425143306
 20
935.9258228097226
 10
1613.392276939912
 20
935.9260875173701
 10
1613.393067929783
 20
935.9265006739374
 10
1613.393772724437
 20
935.9270490182961
 10
1613.394368702008
 20
935.9277149501824
 10
1613.394836733345
 20
935.9284770951134
 10
1613.395161795999
 20
935.9293109904461
 10
1613.395333456403
 20
935.9301898705583
  0
ARC
  5
108A
330
1F
100
AcDbEntity
  8
SANINDUSA
100
AcDbCircle
 10
1613.391169414073
 20
935.9206958903223
 30
0.0
 40
0.005058482987685
100
AcDbArc
 50
97.14906014754653
 51
179.7542972326508
  0
LINE
  5
108C
330
1F
100
AcDbEntity
  8
SANINDUSA
100
AcDbLine
 10
1613.029395197366
 20
936.0468375826613
 30
0.0
 11
1613.029395197366
 21
935.9618375826613
 31
0.0
  0
ARC
  5
108E
330
1F
100
AcDbEntity
  8
SANINDUSA
100
AcDbCircle
 10
1613.034395197366
 20
936.0468375826613
 30
0.0
 40
0.005
100
AcDbArc
 50
90.0
 51
180.0
  0
ARC
  5
1091
330
1F
100
AcDbEntity
  8
SANINDUSA
100
AcDbCircle
 10
1613.674395197366
 20
935.9618375826613
 30
0.0
 40
0.005
100
AcDbArc
 50
270.0
 51
0.0
  0
LINE
  5
1093
330
1F
100
AcDbEntity
  8
SANINDUSA
100
AcDbLine
 10
1613.679395197366
 20
936.0468375826613
 30
0.0
 11
1613.679395197366
 21
935.9618375826613
 31
0.0
  0
ARC
  5
1096
330
1F
100
AcDbEntity
  8
SANINDUSA
100
AcDbCircle
 10
1613.674395197366
 20
936.0468375826613
 30
0.0
 40
0.005
100
AcDbArc
 50
0.0
 51
90.0
  0
LINE
  5
10A7
330
1F
100
AcDbEntity
  8
SANINDUSA
100
AcDbLine
 10
1614.595488918889
 20
935.9690602103894
 30
0.0
 11
1614.544824107861
 21
936.0495022559502
 31
0.0
  0
LINE
  5
10A8
330
1F
100
AcDbEntity
  8
SANINDUSA
100
AcDbLine
 10
1614.533353249112
 20
936.0468375826613
 30
0.0
 11
1614.533353249112
 21
935.9618375826613
 31
0.0
  0
LINE
  5
10A9
330
1F
100
AcDbEntity
  8
SANINDUSA
100
AcDbLine
 10
1614.923353249112
 20
935.9618375826611
 30
0.0
 11
1614.923353249112
 21
936.0468375826613
 31
0.0
  0
LINE
  5
10AA
330
1F
100
AcDbEntity
  8
SANINDUSA
100
AcDbLine
 10
1614.911882390363
 20
936.0495022559502
 30
0.0
 11
1614.861217579334
 21
935.9690602103894
 31
0.0
  0
LINE
  5
10AC
330
1F
100
AcDbEntity
  8
SANINDUSA
100
AcDbLine
 10
1614.821027217746
 20
935.9177175826614
 30
0.0
 11
1614.867027217746
 21
935.9177175826614
 31
0.0
  0
LINE
  5
10AD
330
1F
100
AcDbEntity
  8
SANINDUSA
100
AcDbLine
 10
1614.866026159513
 20
935.9357175826612
 30
0.0
 11
1614.822028275978
 21
935.9357175826612
 31
0.0
  0
LINE
  5
10AE
330
1F
100
AcDbEntity
  8
SANINDUSA
100
AcDbLine
 10
1614.816885832132
 20
935.9678375826613
 30
0.0
 11
1614.860168739624
 21
935.9678375826613
 31
0.0
  0
LINE
  5
10AF
330
1F
100
AcDbEntity
  8
SANINDUSA
100
AcDbLine
 10
1614.816885832132
 20
935.9558375826612
 30
0.0
 11
1614.866519362885
 21
935.9558375826612
 31
0.0
  0
LINE
  5
10B0
330
1F
100
AcDbEntity
  8
SANINDUSA
100
AcDbLine
 10
1614.872772689694
 20
935.9357175826612
 30
0.0
 11
1614.876003850358
 21
935.9664600228224
 31
0.0
  0
LINE
  5
10B1
330
1F
100
AcDbEntity
  8
SANINDUSA
100
AcDbLine
 10
1614.882188032619
 20
935.9296308643704
 30
0.0
 11
1614.887110379326
 21
935.9764638649082
 31
0.0
  0
LINE
  5
10B2
330
1F
100
AcDbEntity
  8
SANINDUSA
100
AcDbLine
 10
1614.866026159513
 20
935.9357175826612
 30
0.0
 11
1614.866026159513
 21
935.9187175826614
 31
0.0
  0
LINE
  5
10B3
330
1F
100
AcDbEntity
  8
SANINDUSA
100
AcDbLine
 10
1614.875526478672
 20
935.9207175826613
 30
0.0
 11
1614.875526478672
 21
935.9187175826614
 31
0.0
  0
LINE
  5
10B4
330
1F
100
AcDbEntity
  8
SANINDUSA
100
AcDbLine
 10
1614.875527217746
 20
935.9187175826614
 30
0.0
 11
1614.875527217746
 21
935.9207175826613
 31
0.0
  0
LINE
  5
10B5
330
1F
100
AcDbEntity
  8
SANINDUSA
100
AcDbLine
 10
1614.875527217746
 20
935.9187175826614
 30
0.0
 11
1614.875526478672
 21
935.9187175826614
 31
0.0
  0
ARC
  5
10B6
330
1F
100
AcDbEntity
  8
SANINDUSA
100
AcDbCircle
 10
1614.867026175807
 20
935.9187175989545
 30
0.0
 40
0.0010000162936455
100
AcDbArc
 50
180.0009335152918
 51
270.0
  0
LINE
  5
10B7
330
1F
100
AcDbEntity
  8
SANINDUSA
100
AcDbLine
 10
1614.867027217746
 20
935.9177175826614
 30
0.0
 11
1614.874527217746
 21
935.9177175826614
 31
0.0
  0
ARC
  5
10B8
330
1F
100
AcDbEntity
  8
SANINDUSA
100
AcDbCircle
 10
1614.874526462977
 20
935.9187175983558
 30
0.0
 40
0.0010000156947752
100
AcDbArc
 50
270.0
 51
359.9991007797387
  0
ARC
  5
10B9
330
1F
100
AcDbEntity
  8
SANINDUSA
100
AcDbCircle
 10
1614.874527217746
 20
935.9187175826614
 30
0.0
 40
0.0010000000000002
100
AcDbArc
 50
270.0
 51
0.0
  0
LINE
  5
10BA
330
1F
100
AcDbEntity
  8
SANINDUSA
100
AcDbLine
 10
1614.875526478672
 20
935.9207175826613
 30
0.0
 11
1614.875527217746
 21
935.9207175826613
 31
0.0
  0
LINE
  5
10BB
330
1F
100
AcDbEntity
  8
SANINDUSA
100
AcDbLine
 10
1614.866026159513
 20
935.9357175826612
 30
0.0
 11
1614.872772689694
 21
935.9357175826612
 31
0.0
  0
ARC
  5
10BC
330
1F
100
AcDbEntity
  8
SANINDUSA
100
AcDbCircle
 10
1614.880526485707
 20
935.9207175527819
 30
0.0
 40
0.005000007034767
100
AcDbArc
 50
109.3357260851948
 51
179.999657609879
  0
ARC
  5
10BD
330
1F
100
AcDbEntity
  8
SANINDUSA
100
AcDbCircle
 10
1614.877215409874
 20
935.9301535040257
 30
0.0
 40
0.005000012917936
100
AcDbArc
 50
289.3362238445169
 51
354.000046216842
  0
LINE
  5
10BF
330
1F
100
AcDbEntity
  8
SANINDUSA
100
AcDbLine
 10
1614.885047573939
 20
935.9568375826611
 30
0.0
 11
1614.913976613603
 21
935.9568375826611
 31
0.0
  0
LINE
  5
10C1
330
1F
100
AcDbEntity
  8
SANINDUSA
100
AcDbLine
 10
1614.909862440878
 20
935.9589961775895
 30
0.0
 11
1614.896197161528
 21
935.9787826276635
 31
0.0
  0
ARC
  5
10C5
330
1F
100
AcDbEntity
  8
SANINDUSA
100
AcDbCircle
 10
1614.913976613603
 20
935.9618375826611
 30
0.0
 40
0.005
100
AcDbArc
 50
214.6304424363288
 51
270.0
  0
LINE
  5
10C6
330
1F
100
AcDbEntity
  8
SANINDUSA
100
AcDbLine
 10
1614.913976613603
 20
935.9568375826611
 30
0.0
 11
1614.918353249112
 21
935.9568375826611
 31
0.0
  0
ARC
  5
10C7
330
1F
100
AcDbEntity
  8
SANINDUSA
100
AcDbCircle
 10
1614.918353249112
 20
935.9618375826611
 30
0.0
 40
0.005
100
AcDbArc
 50
270.0
 51
0.0
  0
LINE
  5
10D2
330
1F
100
AcDbEntity
  8
SANINDUSA
100
AcDbLine
 10
1614.874163172064
 20
935.9670974859435
 30
0.0
 11
1614.867365519284
 21
935.9563046480035
 31
0.0
  0
ARC
  5
10D3
330
1F
100
AcDbEntity
  8
SANINDUSA
100
AcDbCircle
 10
1614.856567855099
 20
935.9719878176148
 30
0.0
 40
0.0054946173232341
100
AcDbArc
 50
310.9460155178128
 51
327.8042389049821
  0
ARC
  5
10D9
330
1F
100
AcDbEntity
  8
SANINDUSA
100
AcDbCircle
 10
1614.892082988802
 20
935.9759412225917
 30
0.0
 40
0.0050000000000003
100
AcDbArc
 50
34.63044243632876
 51
174.0000000022097
  0
LINE
  5
10DA
330
1F
100
AcDbEntity
  8
SANINDUSA
100
AcDbLine
 10
1614.816885832132
 20
935.9678375826613
 30
0.0
 11
1614.638963632938
 21
935.9678375826613
 31
0.0
  0
LINE
  5
10DB
330
1F
100
AcDbEntity
  8
SANINDUSA
100
AcDbLine
 10
1614.751921624265
 20
935.9257242311175
 30
0.0
 11
1614.613358392993
 21
935.9328769613521
 31
0.0
  0
LINE
  5
10DC
330
1F
100
AcDbEntity
  8
SANINDUSA
100
AcDbLine
 10
1614.75230835042
 20
935.9357175826612
 30
0.0
 11
1614.822028275978
 21
935.9357175826612
 31
0.0
  0
LINE
  5
10DD
330
1F
100
AcDbEntity
  8
SANINDUSA
100
AcDbLine
 10
1614.75217938454
 20
935.9257175826613
 30
0.0
 11
1614.807527855575
 21
935.9257175826613
 31
0.0
  0
LINE
  5
10DF
330
1F
100
AcDbEntity
  8
SANINDUSA
100
AcDbLine
 10
1614.813527217746
 20
935.9177175826614
 30
0.0
 11
1614.821027217746
 21
935.9177175826614
 31
0.0
  0
LINE
  5
10E0
330
1F
100
AcDbEntity
  8
SANINDUSA
100
AcDbLine
 10
1614.822028275978
 20
935.9187175826614
 30
0.0
 11
1614.822028275978
 21
935.9357175826612
 31
0.0
  0
ARC
  5
10E1
330
1F
100
AcDbEntity
  8
SANINDUSA
100
AcDbCircle
 10
1614.821028244945
 20
935.918717613695
 30
0.0
 40
0.001000031033961
100
AcDbArc
 50
270.0
 51
359.9982219475959
  0
LINE
  5
10E2
330
1F
100
AcDbEntity
  8
SANINDUSA
100
AcDbLine
 10
1614.81252795682
 20
935.9187175826614
 30
0.0
 11
1614.81252795682
 21
935.9207175826613
 31
0.0
  0
LINE
  5
10E3
330
1F
100
AcDbEntity
  8
SANINDUSA
100
AcDbLine
 10
1614.812527217746
 20
935.9207175826613
 30
0.0
 11
1614.812527217746
 21
935.9187175826614
 31
0.0
  0
LINE
  5
10E4
330
1F
100
AcDbEntity
  8
SANINDUSA
100
AcDbLine
 10
1614.81252795682
 20
935.9187175826614
 30
0.0
 11
1614.812527217746
 21
935.9187175826614
 31
0.0
  0
ARC
  5
10E5
330
1F
100
AcDbEntity
  8
SANINDUSA
100
AcDbCircle
 10
1614.81352796486
 20
935.918717590702
 30
0.0
 40
0.0010000080409633
100
AcDbArc
 50
180.0004606998342
 51
270.0
  0
ARC
  5
10E6
330
1F
100
AcDbEntity
  8
SANINDUSA
100
AcDbCircle
 10
1614.813527217746
 20
935.9187175826614
 30
0.0
 40
0.001
100
AcDbArc
 50
180.0
 51
270.0
  0
LINE
  5
10E7
330
1F
100
AcDbEntity
  8
SANINDUSA
100
AcDbLine
 10
1614.812527217746
 20
935.9207175826613
 30
0.0
 11
1614.81252795682
 21
935.9207175826613
 31
0.0
  0
ARC
  5
10E8
330
1F
100
AcDbEntity
  8
SANINDUSA
100
AcDbCircle
 10
1614.807527884883
 20
935.920717510724
 30
0.0
 40
0.0050000719373985
100
AcDbArc
 50
0.0008243313787501
 51
90.0
  0
LINE
  5
10E9
330
1F
100
AcDbEntity
  8
SANINDUSA
100
AcDbLine
 10
1614.816885832132
 20
935.9558375826612
 30
0.0
 11
1614.816885832132
 21
935.9678375826613
 31
0.0
  0
ARC
  5
10EA
330
1F
100
AcDbEntity
  8
SANINDUSA
100
AcDbCircle
 10
1614.75217938454
 20
935.9307175826613
 30
0.0
 40
0.0050000000000001
100
AcDbArc
 50
267.0449749585786
 51
270.0
  0
LINE
  5
10EB
330
1F
100
AcDbEntity
  8
SANINDUSA
100
AcDbLine
 10
1614.5965377586
 20
935.9678375826613
 30
0.0
 11
1614.638963632938
 21
935.9678375826613
 31
0.0
  0
LINE
  5
10EC
330
1F
100
AcDbEntity
  8
SANINDUSA
100
AcDbLine
 10
1614.638963632938
 20
935.9678375826613
 30
0.0
 11
1614.638963632938
 21
935.9578375826613
 31
0.0
  0
LINE
  5
10ED
330
1F
100
AcDbEntity
  8
SANINDUSA
100
AcDbLine
 10
1614.538353249112
 20
935.9568375826613
 30
0.0
 11
1614.593868593148
 21
935.9568375826613
 31
0.0
  0
ARC
  5
10EE
330
1F
100
AcDbEntity
  8
SANINDUSA
100
AcDbCircle
 10
1614.600132589468
 20
935.9719826244438
 30
0.0
 40
0.0054867276543084
100
AcDbArc
 50
212.1835520024817
 51
229.0661935659227
  0
ARC
  5
10EF
330
1F
100
AcDbEntity
  8
SANINDUSA
100
AcDbCircle
 10
1614.538353249112
 20
935.9618375826613
 30
0.0
 40
0.005
100
AcDbArc
 50
180.0
 51
270.0
  0
LINE
  5
10F0
330
1F
100
AcDbEntity
  8
SANINDUSA
100
AcDbLine
 10
1614.540593325869
 20
936.0518375826613
 30
0.0
 11
1614.916113172355
 21
936.0518375826613
 31
0.0
  0
ARC
  5
10F4
330
1F
100
AcDbEntity
  8
SANINDUSA
100
AcDbCircle
 10
1614.918353249112
 20
936.0468375826613
 30
0.0
 40
0.0050000000000001
100
AcDbArc
 50
0.0
 51
90.0
  0
LINE
  5
10F5
330
1F
100
AcDbEntity
  8
SANINDUSA
100
AcDbLine
 10
1614.918353249112
 20
936.0518375826613
 30
0.0
 11
1614.916113172355
 21
936.0518375826613
 31
0.0
  0
ARC
  5
10F6
330
1F
100
AcDbEntity
  8
SANINDUSA
100
AcDbCircle
 10
1614.916113172355
 20
936.0468375826613
 30
0.0
 40
0.0050000000000001
100
AcDbArc
 50
90.0
 51
147.7960468850215
  0
LINE
  5
10F9
330
1F
100
AcDbEntity
  8
SANINDUSA
100
AcDbLine
 10
1614.540593325869
 20
936.0518375826613
 30
0.0
 11
1614.538353249112
 21
936.0518375826613
 31
0.0
  0
LINE
  5
10FB
330
1F
100
AcDbEntity
  8
SANINDUSA
100
AcDbLine
 10
1612.563213655221
 20
935.8846661761374
 30
0.0
 11
1612.872797481386
 21
935.8318699180554
 31
0.0
  0
LINE
  5
10FC
330
1F
100
AcDbEntity
  8
SANINDUSA
100
AcDbLine
 10
1612.872797481386
 20
936.1959122344531
 30
0.0
 11
1612.563213655221
 21
936.1431159763711
 31
0.0
  0
LINE
  5
10FE
330
1F
100
AcDbEntity
  8
SANINDUSA
100
AcDbLine
 10
1612.878439322752
 20
935.8188910762542
 30
0.0
 11
1612.238439322753
 21
935.8188910762542
 31
0.0
  0
LINE
  5
1102
330
1F
100
AcDbEntity
  8
SANINDUSA
100
AcDbLine
 10
1612.261353759875
 20
936.2016509994971
 30
0.0
 11
1612.85552488563
 21
936.2016509994971
 31
0.0
  0
LINE
  5
1103
330
1F
100
AcDbEntity
  8
SANINDUSA
100
AcDbLine
 10
1612.85552488563
 20
935.8261311530114
 30
0.0
 11
1612.261353759875
 21
935.8261311530114
 31
0.0
  0
LINE
  5
1105
330
1F
100
AcDbEntity
  8
SANINDUSA
100
AcDbLine
 10
1612.238439322753
 20
936.2088910762542
 30
0.0
 11
1612.878439322752
 21
936.2088910762542
 31
0.0
  0
LINE
  5
1106
330
1F
100
AcDbEntity
  8
SANINDUSA
100
AcDbLine
 10
1612.244081164119
 20
935.8318699180554
 30
0.0
 11
1612.553664990284
 21
935.8846661761374
 31
0.0
  0
LINE
  5
1109
330
1F
100
AcDbEntity
  8
SANINDUSA
100
AcDbLine
 10
1612.553664990284
 20
936.1431159763711
 30
0.0
 11
1612.244081164119
 21
936.1959122344531
 31
0.0
  0
LINE
  5
110B
330
1F
100
AcDbEntity
  8
SANINDUSA
100
AcDbLine
 10
1612.233439322752
 20
935.8238910762542
 30
0.0
 11
1612.233439322752
 21
936.2038910762542
 31
0.0
  0
LINE
  5
110D
330
1F
100
AcDbEntity
  8
SANINDUSA
100
AcDbLine
 10
1612.242774368673
 20
935.8318699180554
 30
0.0
 11
1612.242774368673
 21
936.1959122344531
 31
0.0
  0
LWPOLYLINE
  5
110F
330
1F
100
AcDbEntity
  8
SANINDUSA
100
AcDbPolyline
 90
       11
 70
   128
 43
0.0
 10
1612.261353759875
 20
935.8261311530114
 10
1612.258083059201
 20
935.826193844816
 10
1612.255055874767
 20
935.8263812551065
 10
1612.252304323227
 20
935.8266913955695
 10
1612.24985759693
 20
935.8271209757965
 10
1612.24774165421
 20
935.8276654381928
 10
1612.245978943979
 20
935.8283190063309
 10
1612.244588167562
 20
935.8290747462362
 10
1612.243584080281
 20
935.8299246399505
 10
1612.242977334913
 20
935.8308596705994
 10
1612.242774368673
 20
935.8318699180554
  0
ARC
  5
1110
330
1F
100
AcDbEntity
  8
SANINDUSA
100
AcDbCircle
 10
1612.238439322753
 20
935.8238910762542
 30
0.0
 40
0.005
100
AcDbArc
 50
180.0
 51
270.0
  0
LINE
  5
1112
330
1F
100
AcDbEntity
  8
SANINDUSA
100
AcDbLine
 10
1612.242774368673
 20
935.8318699180554
 30
0.0
 11
1612.244081164119
 21
935.8318699180554
 31
0.0
  0
LWPOLYLINE
  5
1116
330
1F
100
AcDbEntity
  8
SANINDUSA
100
AcDbPolyline
 90
       11
 70
   128
 43
0.0
 10
1612.242774368673
 20
936.1959122344531
 10
1612.242977334913
 20
936.1969224819089
 10
1612.243584080281
 20
936.1978575125579
 10
1612.244588167562
 20
936.1987074062723
 10
1612.245978943979
 20
936.1994631461774
 10
1612.24774165421
 20
936.2001167143157
 10
1612.24985759693
 20
936.2006611767117
 10
1612.252304323227
 20
936.2010907569388
 10
1612.255055874767
 20
936.2014008974018
 10
1612.258083059201
 20
936.2015883076924
 10
1612.261353759875
 20
936.2016509994971
  0
LINE
  5
1117
330
1F
100
AcDbEntity
  8
SANINDUSA
100
AcDbLine
 10
1612.242774368673
 20
936.1959122344531
 30
0.0
 11
1612.244081164119
 21
936.1959122344531
 31
0.0
  0
ARC
  5
1118
330
1F
100
AcDbEntity
  8
SANINDUSA
100
AcDbCircle
 10
1612.238439322753
 20
936.2038910762542
 30
0.0
 40
0.005
100
AcDbArc
 50
90.0
 51
180.0
  0
LINE
  5
111C
330
1F
100
AcDbEntity
  8
SANINDUSA
100
AcDbLine
 10
1612.559439322752
 20
935.9252171076203
 30
0.0
 11
1612.559439322752
 21
936.102565044888
 31
0.0
  0
LINE
  5
111D
330
1F
100
AcDbEntity
  8
SANINDUSA
100
AcDbLine
 10
1612.563213655221
 20
936.1431159763711
 30
0.0
 11
1612.563213655221
 21
935.8846661761374
 31
0.0
  0
LINE
  5
111E
330
1F
100
AcDbEntity
  8
SANINDUSA
100
AcDbLine
 10
1612.553664990284
 20
936.1431159763711
 30
0.0
 11
1612.553664990284
 21
935.8846661761374
 31
0.0
  0
LWPOLYLINE
  5
111F
330
1F
100
AcDbEntity
  8
SANINDUSA
100
AcDbPolyline
 90
        6
 70
   128
 43
0.0
 10
1612.558439322753
 20
935.8820755857422
 10
1612.56010956277
 20
935.8823923211826
 10
1612.561446137393
 20
935.8828196813311
 10
1612.562421219969
 20
935.8833487688158
 10
1612.563014509887
 20
935.8839685683648
 10
1612.563213655221
 20
935.8846661761374
  0
LWPOLYLINE
  5
1121
330
1F
100
AcDbEntity
  8
SANINDUSA
100
AcDbPolyline
 90
        6
 70
   128
 43
0.0
 10
1612.553664990284
 20
935.8846661761374
 10
1612.553864135617
 20
935.8839685683648
 10
1612.554457425535
 20
935.8833487688158
 10
1612.555432508112
 20
935.8828196813311
 10
1612.556769082734
 20
935.8823923211826
 10
1612.558439322753
 20
935.8820755857422
  0
LWPOLYLINE
  5
1122
330
1F
100
AcDbEntity
  8
SANINDUSA
100
AcDbPolyline
 90
        6
 70
   128
 43
0.0
 10
1612.563213655221
 20
936.1431159763711
 10
1612.563014509887
 20
936.1438135841435
 10
1612.562421219969
 20
936.1444333836926
 10
1612.561446137393
 20
936.1449624711772
 10
1612.56010956277
 20
936.1453898313257
 10
1612.558439322753
 20
936.1457065667661
  0
LWPOLYLINE
  5
1123
330
1F
100
AcDbEntity
  8
SANINDUSA
100
AcDbPolyline
 90
        6
 70
   128
 43
0.0
 10
1612.558439322753
 20
936.1457065667661
 10
1612.556769082734
 20
936.1453898313257
 10
1612.555432508112
 20
936.1449624711772
 10
1612.554457425535
 20
936.1444333836926
 10
1612.553864135617
 20
936.1438135841435
 10
1612.553664990284
 20
936.1431159763711
  0
LINE
  5
1126
330
1F
100
AcDbEntity
  8
SANINDUSA
100
AcDbLine
 10
1612.883439322752
 20
936.2038910762542
 30
0.0
 11
1612.883439322752
 21
935.8238910762542
 31
0.0
  0
LINE
  5
1128
330
1F
100
AcDbEntity
  8
SANINDUSA
100
AcDbLine
 10
1612.874104276831
 20
936.1959122344531
 30
0.0
 11
1612.874104276831
 21
935.8318699180554
 31
0.0
  0
LWPOLYLINE
  5
112A
330
1F
100
AcDbEntity
  8
SANINDUSA
100
AcDbPolyline
 90
       11
 70
   128
 43
0.0
 10
1612.874104276831
 20
935.8318699180554
 10
1612.873901310591
 20
935.8308596705994
 10
1612.873294565224
 20
935.8299246399505
 10
1612.872290477943
 20
935.8290747462362
 10
1612.870899701525
 20
935.8283190063309
 10
1612.869136991295
 20
935.8276654381928
 10
1612.867021048575
 20
935.8271209757965
 10
1612.864574322278
 20
935.8266913955695
 10
1612.861822770738
 20
935.8263812551065
 10
1612.858795586304
 20
935.826193844816
 10
1612.85552488563
 20
935.8261311530114
  0
ARC
  5
112C
330
1F
100
AcDbEntity
  8
SANINDUSA
100
AcDbCircle
 10
1612.878439322752
 20
935.8238910762542
 30
0.0
 40
0.005
100
AcDbArc
 50
270.0
 51
0.0
  0
LINE
  5
112E
330
1F
100
AcDbEntity
  8
SANINDUSA
100
AcDbLine
 10
1612.872797481386
 20
935.8318699180554
 30
0.0
 11
1612.874104276831
 21
935.8318699180554
 31
0.0
  0
LWPOLYLINE
  5
1131
330
1F
100
AcDbEntity
  8
SANINDUSA
100
AcDbPolyline
 90
       11
 70
   128
 43
0.0
 10
1612.85552488563
 20
936.2016509994971
 10
1612.858795586304
 20
936.2015883076924
 10
1612.861822770738
 20
936.2014008974018
 10
1612.864574322278
 20
936.2010907569388
 10
1612.867021048575
 20
936.2006611767117
 10
1612.869136991295
 20
936.2001167143157
 10
1612.870899701525
 20
936.1994631461774
 10
1612.872290477943
 20
936.1987074062723
 10
1612.873294565224
 20
936.1978575125579
 10
1612.873901310591
 20
936.1969224819089
 10
1612.874104276831
 20
936.1959122344531
  0
LINE
  5
1133
330
1F
100
AcDbEntity
  8
SANINDUSA
100
AcDbLine
 10
1612.872797481386
 20
936.1959122344531
 30
0.0
 11
1612.874104276831
 21
936.1959122344531
 31
0.0
  0
ARC
  5
1135
330
1F
100
AcDbEntity
  8
SANINDUSA
100
AcDbCircle
 10
1612.878439322752
 20
936.2038910762542
 30
0.0
 40
0.005
100
AcDbArc
 50
0.0
 51
90.0
  0
ARC
  5
1137
330
1F
100
AcDbEntity
  8
SANINDUSA
100
AcDbCircle
 10
1614.360070709591
 20
935.9618375826613
 30
0.0
 40
0.005
100
AcDbArc
 50
270.0
 51
0.0
  0
ARC
  5
1138
330
1F
100
AcDbEntity
  8
SANINDUSA
100
AcDbCircle
 10
1613.980070709591
 20
935.9618375826613
 30
0.0
 40
0.005
100
AcDbArc
 50
180.0
 51
270.0
  0
LINE
  5
113C
330
1F
100
AcDbEntity
  8
SANINDUSA
100
AcDbLine
 10
1613.980070709591
 20
935.9568375826611
 30
0.0
 11
1614.360070709591
 21
935.9568375826611
 31
0.0
  0
LINE
  5
113D
330
1F
100
AcDbEntity
  8
SANINDUSA
100
AcDbLine
 10
1614.01892719399
 20
935.9257175826613
 30
0.0
 11
1614.146244574163
 21
935.9257175826613
 31
0.0
  0
LINE
  5
1141
330
1F
100
AcDbEntity
  8
SANINDUSA
100
AcDbLine
 10
1614.023896740957
 20
935.9177175826614
 30
0.0
 11
1614.084896740957
 21
935.9177175826614
 31
0.0
  0
LINE
  5
1144
330
1F
100
AcDbEntity
  8
SANINDUSA
100
AcDbLine
 10
1614.022896740957
 20
935.9207175826613
 30
0.0
 11
1614.022896740957
 21
935.9187175826614
 31
0.0
  0
ARC
  5
1145
330
1F
100
AcDbEntity
  8
SANINDUSA
100
AcDbCircle
 10
1614.023896740957
 20
935.9187175826614
 30
0.0
 40
0.0010000000000002
100
AcDbArc
 50
180.0
 51
270.0
  0
LWPOLYLINE
  5
1146
330
1F
100
AcDbEntity
  8
SANINDUSA
100
AcDbPolyline
 90
        3
 70
   128
 43
0.0
 10
1614.016189385402
 20
935.9300740813484
 10
1614.015601986303
 20
935.9356628012795
 10
1614.013376424173
 20
935.9568375826611
  0
LINE
  5
114C
330
1F
100
AcDbEntity
  8
SANINDUSA
100
AcDbLine
 10
1614.016189342103
 20
935.930074081348
 30
0.0
 11
1614.016232084101
 21
935.9296680286174
 31
0.0
  0
LWPOLYLINE
  5
1152
330
1F
100
AcDbEntity
  8
SANINDUSA
100
AcDbPolyline
 90
        9
 70
   128
 43
0.0
 10
1614.019561799412
 20
935.9254321961495
 10
1614.018942099494
 20
935.9257086125863
 10
1614.018328740141
 20
935.9260777298738
 10
1614.017774391454
 20
935.9265306486264
 10
1614.017290417736
 20
935.9270580838829
 10
1614.016886740584
 20
935.9276492230724
 10
1614.016571635494
 20
935.9282919476751
 10
1614.016351562208
 20
935.9289730816563
 10
1614.016232084101
 20
935.9296680286174
  0
ARC
  5
1153
330
1F
100
AcDbEntity
  8
SANINDUSA
100
AcDbCircle
 10
1614.017896740957
 20
935.9207175826613
 30
0.0
 40
0.0049999999999998
100
AcDbArc
 50
0.0
 51
70.54832483604997
  0
LINE
  5
1154
330
1F
100
AcDbEntity
  8
SANINDUSA
100
AcDbLine
 10
1614.085896740957
 20
935.9187175826614
 30
0.0
 11
1614.085896740957
 21
935.9207175826613
 31
0.0
  0
ARC
  5
1155
330
1F
100
AcDbEntity
  8
SANINDUSA
100
AcDbCircle
 10
1614.084896740957
 20
935.9187175826614
 30
0.0
 40
0.0009999999999999
100
AcDbArc
 50
270.0
 51
0.0
  0
ARC
  5
115F
330
1F
100
AcDbEntity
  8
SANINDUSA
100
AcDbCircle
 10
1614.090896740957
 20
935.9207175826613
 30
0.0
 40
0.005
100
AcDbArc
 50
90.0
 51
180.0
  0
ARC
  5
1160
330
1F
100
AcDbEntity
  8
SANINDUSA
100
AcDbCircle
 10
1614.146244574163
 20
935.9307175826613
 30
0.0
 40
0.005
100
AcDbArc
 50
270.0
 51
272.9550250414214
  0
LINE
  5
1164
330
1F
100
AcDbEntity
  8
SANINDUSA
100
AcDbLine
 10
1613.980070709591
 20
936.0518375826613
 30
0.0
 11
1614.360070709591
 21
936.0518375826613
 31
0.0
  0
LINE
  5
1166
330
1F
100
AcDbEntity
  8
SANINDUSA
100
AcDbLine
 10
1613.975070709591
 20
936.0468375826613
 30
0.0
 11
1613.975070709591
 21
935.9618375826613
 31
0.0
  0
ARC
  5
1169
330
1F
100
AcDbEntity
  8
SANINDUSA
100
AcDbCircle
 10
1613.980070709591
 20
936.0468375826613
 30
0.0
 40
0.005
100
AcDbArc
 50
90.0
 51
180.0
  0
LINE
  5
116C
330
1F
100
AcDbEntity
  8
SANINDUSA
100
AcDbLine
 10
1614.365070709591
 20
935.9618375826613
 30
0.0
 11
1614.365070709591
 21
936.0468375826613
 31
0.0
  0
ARC
  5
1170
330
1F
100
AcDbEntity
  8
SANINDUSA
100
AcDbCircle
 10
1614.360070709591
 20
936.0468375826613
 30
0.0
 40
0.005
100
AcDbArc
 50
0.0
 51
90.0
  0
LINE
  5
11B3
330
1F
100
AcDbEntity
  8
SANINDUSA
100
AcDbLine
 10
1612.559439322752
 20
936.102565044888
 30
0.0
 11
1612.557439322753
 21
936.102565044888
 31
0.0
  0
LINE
  5
11B4
330
1F
100
AcDbEntity
  8
SANINDUSA
100
AcDbLine
 10
1612.559439322752
 20
935.9252171076203
 30
0.0
 11
1612.557439322753
 21
935.9252171076203
 31
0.0
  0
LINE
  5
11B5
330
1F
100
AcDbEntity
  8
SANINDUSA
100
AcDbLine
 10
1612.557439322753
 20
936.102565044888
 30
0.0
 11
1612.557439322753
 21
935.9252171076203
 31
0.0
  0
LINE
  5
11DA
330
1F
100
AcDbEntity
  8
SANINDUSA
100
AcDbLine
 10
1614.638963632938
 20
935.9558375826612
 30
0.0
 11
1614.816885832132
 21
935.9558375826612
 31
0.0
  0
LINE
  5
1209
330
1F
100
AcDbEntity
  8
SANINDUSA
100
AcDbLine
 10
1614.75230835042
 20
935.9357175826612
 30
0.0
 11
1614.61805870021
 21
935.9426476428454
 31
0.0
  0
ARC
  5
120C
330
1F
100
AcDbEntity
  8
SANINDUSA
100
AcDbCircle
 10
1614.613616153268
 20
935.9378703128959
 30
0.0
 40
0.0049999999999999
100
AcDbArc
 50
197.1846105046458
 51
267.0449749585786
  0
ARC
  5
120E
330
1F
100
AcDbEntity
  8
SANINDUSA
100
AcDbCircle
 10
1614.538353249112
 20
936.0468375826613
 30
0.0
 40
0.005
100
AcDbArc
 50
90.0
 51
180.0
  0
LINE
  5
120F
330
1F
100
AcDbEntity
  8
SANINDUSA
100
AcDbLine
 10
1614.595488918889
 20
935.9690602103894
 30
0.0
 11
1614.544824107861
 21
936.0495022559502
 31
0.0
  0
LINE
  5
1211
330
1F
100
AcDbEntity
  8
SANINDUSA
100
AcDbLine
 10
1614.589905132306
 20
935.9591766155292
 30
0.0
 11
1614.584938042631
 21
935.9670783503757
 31
0.0
  0
LINE
  5
1212
330
1F
100
AcDbEntity
  8
SANINDUSA
100
AcDbLine
 10
1614.569743114971
 20
935.9607980242072
 30
0.0
 11
1614.570733398454
 21
935.9654569416978
 31
0.0
  0
LINE
  5
1213
330
1F
100
AcDbEntity
  8
SANINDUSA
100
AcDbLine
 10
1614.533353249112
 20
936.0468375826613
 30
0.0
 11
1614.533353249112
 21
935.9618375826611
 31
0.0
  0
LINE
  5
1214
330
1F
100
AcDbEntity
  8
SANINDUSA
100
AcDbLine
 10
1614.538353249112
 20
935.9568375826611
 30
0.0
 11
1614.564852376968
 21
935.9568375826611
 31
0.0
  0
ARC
  5
1219
330
1F
100
AcDbEntity
  8
SANINDUSA
100
AcDbCircle
 10
1614.564852376968
 20
935.9618375826611
 30
0.0
 40
0.005
100
AcDbArc
 50
270.0
 51
347.9999999996366
  0
ARC
  5
121A
330
1F
100
AcDbEntity
  8
SANINDUSA
100
AcDbCircle
 10
1614.538353249112
 20
935.9618375826611
 30
0.0
 40
0.005
100
AcDbArc
 50
180.0
 51
270.0
  0
ARC
  5
121B
330
1F
100
AcDbEntity
  8
SANINDUSA
100
AcDbCircle
 10
1614.575624136458
 20
935.9644173832437
 30
0.0
 40
0.0050000000000002
100
AcDbArc
 50
90.0
 51
167.9999999996366
  0
ARC
  5
121C
330
1F
100
AcDbEntity
  8
SANINDUSA
100
AcDbCircle
 10
1614.580704928657
 20
935.9644173832437
 30
0.0
 40
0.005
100
AcDbArc
 50
32.15377595417113
 51
90.0
  0
LINE
  5
121D
330
1F
100
AcDbEntity
  8
SANINDUSA
100
AcDbLine
 10
1614.580704928657
 20
935.9694173832437
 30
0.0
 11
1614.575624136458
 21
935.9694173832437
 31
0.0
  0
ARC
  5
121E
330
1F
100
AcDbEntity
  8
SANINDUSA
100
AcDbCircle
 10
1614.600132589465
 20
935.9719826244408
 30
0.0
 40
0.0054867276494507
100
AcDbArc
 50
212.1835520024817
 51
229.0661935701904
  0
LINE
  5
1221
330
1F
100
AcDbEntity
  8
SANINDUSA
100
AcDbLine
 10
1614.540593325869
 20
936.0518375826613
 30
0.0
 11
1614.538353249112
 21
936.0518375826613
 31
0.0
  0
ARC
  5
1222
330
1F
100
AcDbEntity
  8
SANINDUSA
100
AcDbCircle
 10
1614.540593325869
 20
936.0468375826613
 30
0.0
 40
0.005
100
AcDbArc
 50
32.20395311497848
 51
90.0
  0
LINE
  5
1223
330
1F
100
AcDbEntity
  8
SANINDUSA
100
AcDbLine
 10
1614.543353249112
 20
936.0296094234961
 30
0.0
 11
1614.543353249112
 21
935.9678375826613
 31
0.0
  0
LINE
  5
1224
330
1F
100
AcDbEntity
  8
SANINDUSA
100
AcDbLine
 10
1614.544353249112
 20
935.9668375826613
 30
0.0
 11
1614.559993965763
 21
935.9668375826613
 31
0.0
  0
LINE
  5
1225
330
1F
100
AcDbEntity
  8
SANINDUSA
100
AcDbLine
 10
1614.576183644044
 20
935.9809477499597
 30
0.0
 11
1614.54519940551
 21
936.0301423581539
 31
0.0
  0
ARC
  5
1226
330
1F
100
AcDbEntity
  8
SANINDUSA
100
AcDbCircle
 10
1614.575624136458
 20
935.9644173832437
 30
0.0
 40
0.0150000000000002
100
AcDbArc
 50
91.02654037181073
 51
167.657066109219
  0
ARC
  5
1227
330
1F
100
AcDbEntity
  8
SANINDUSA
100
AcDbCircle
 10
1614.544353249112
 20
936.0296094234961
 30
0.0
 40
0.001
100
AcDbArc
 50
32.20395311497848
 51
180.0
  0
ARC
  5
1228
330
1F
100
AcDbEntity
  8
SANINDUSA
100
AcDbCircle
 10
1614.544353249112
 20
935.9678375826613
 30
0.0
 40
0.001
100
AcDbArc
 50
180.0
 51
270.0
  0
ARC
  5
1229
330
1F
100
AcDbEntity
  8
SANINDUSA
100
AcDbCircle
 10
1614.559993965763
 20
935.9678375826613
 30
0.0
 40
0.001
100
AcDbArc
 50
270.0
 51
347.657066109219
  0
ARC
  5
122A
330
1F
100
AcDbEntity
  8
SANINDUSA
100
AcDbCircle
 10
1614.575337487645
 20
935.9804148153019
 30
0.0
 40
0.001
100
AcDbArc
 50
271.0265403718107
 51
32.20395311497848
  0
LINE
  5
122B
330
1F
100
AcDbEntity
  8
SANINDUSA
100
AcDbLine
 10
1614.613693911612
 20
935.9545421312072
 30
0.0
 11
1614.617154894511
 21
935.9433508617001
 31
0.0
  0
ARC
  5
122C
330
1F
100
AcDbEntity
  8
SANINDUSA
100
AcDbCircle
 10
1614.618110252265
 20
935.9436463131542
 30
0.0
 40
0.001
100
AcDbArc
 50
197.1846105046458
 51
267.0449749585786
  0
LINE
  5
124A
330
1F
100
AcDbEntity
  8
SANINDUSA
100
AcDbLine
 10
1614.146502334438
 20
935.9257242311175
 30
0.0
 11
1614.28506556571
 21
935.9328769613521
 31
0.0
  0
ARC
  5
124C
330
1F
100
AcDbEntity
  8
SANINDUSA
100
AcDbCircle
 10
1614.360070709591
 20
936.0468375826613
 30
0.0
 40
0.005
100
AcDbArc
 50
0.0
 51
90.0
  0
LINE
  5
124D
330
1F
100
AcDbEntity
  8
SANINDUSA
100
AcDbLine
 10
1614.365070709591
 20
935.9618375826613
 30
0.0
 11
1614.365070709591
 21
936.0468375826613
 31
0.0
  0
ARC
  5
124E
330
1F
100
AcDbEntity
  8
SANINDUSA
100
AcDbCircle
 10
1614.360070709591
 20
935.9618375826613
 30
0.0
 40
0.005
100
AcDbArc
 50
270.0
 51
0.0
  0
ARC
  5
1254
330
1F
100
AcDbEntity
  8
SANINDUSA
100
AcDbCircle
 10
1614.299594569977
 20
935.9518375826612
 30
0.0
 40
0.0050000000000001
100
AcDbArc
 50
90.0
 51
162.8153894953541
  0
ARC
  5
1255
330
1F
100
AcDbEntity
  8
SANINDUSA
100
AcDbCircle
 10
1614.284807805435
 20
935.9378703128959
 30
0.0
 40
0.0050000000000001
100
AcDbArc
 50
272.9550250414214
 51
342.8153894953542
  0
LINE
  5
1269
330
1F
100
AcDbEntity
  8
SANINDUSA
100
AcDbLine
 10
1614.598829388726
 20
935.9568375826613
 30
0.0
 11
1614.593509638795
 21
935.9568375826613
 31
0.0
  0
LINE
  5
126A
330
1F
100
AcDbEntity
  8
SANINDUSA
100
AcDbLine
 10
1614.913353249112
 20
935.9747462672698
 30
0.0
 11
1614.913353249112
 21
936.0296094234961
 31
0.0
  0
LINE
  5
126B
330
1F
100
AcDbEntity
  8
SANINDUSA
100
AcDbLine
 10
1614.911507092713
 20
936.0301423581539
 30
0.0
 11
1614.893434236811
 21
936.0014475408158
 31
0.0
  0
LINE
  5
126C
330
1F
100
AcDbEntity
  8
SANINDUSA
100
AcDbLine
 10
1614.911530414567
 20
935.9741779862556
 30
0.0
 11
1614.893457558664
 21
936.0003463251436
 31
0.0
  0
ARC
  5
126D
330
1F
100
AcDbEntity
  8
SANINDUSA
100
AcDbCircle
 10
1614.912353249112
 20
936.0296094234961
 30
0.0
 40
0.001
100
AcDbArc
 50
0.0
 51
147.7960468850215
  0
ARC
  5
126E
330
1F
100
AcDbEntity
  8
SANINDUSA
100
AcDbCircle
 10
1614.912353249112
 20
935.9747462672698
 30
0.0
 40
0.001
100
AcDbArc
 50
214.6304424363288
 51
0.0
  0
ARC
  5
126F
330
1F
100
AcDbEntity
  8
SANINDUSA
100
AcDbCircle
 10
1614.894280393209
 20
936.000914606158
 30
0.0
 40
0.001
100
AcDbArc
 50
147.7960468850215
 51
214.6304424363288
  0
LINE
  5
1270
330
1F
100
AcDbEntity
  8
SANINDUSA
100
AcDbLine
 10
1614.638963632938
 20
935.9678375826613
 30
0.0
 11
1614.638963632938
 21
935.9558375826612
 31
0.0
  0
LINE
  5
1271
330
1F
100
AcDbEntity
  8
SANINDUSA
100
AcDbLine
 10
1614.638963632938
 20
935.9558375826612
 30
0.0
 11
1614.614649269366
 21
935.9558375826612
 31
0.0
  0
ARC
  5
1272
330
1F
100
AcDbEntity
  8
SANINDUSA
100
AcDbCircle
 10
1614.614649269366
 20
935.9548375826612
 30
0.0
 40
0.001
100
AcDbArc
 50
90.0
 51
197.1846105046458
  0
ARC
  5
1273
330
1F
100
AcDbEntity
  8
SANINDUSA
100
AcDbCircle
 10
1614.866519362885
 20
935.9568375826611
 30
0.0
 40
0.001
100
AcDbArc
 50
270.0
 51
327.7960468850215
  0
ARC
  5
1274
330
1F
100
AcDbEntity
  8
SANINDUSA
100
AcDbCircle
 10
1614.875009328462
 20
935.9665645512857
 30
0.0
 40
0.001
100
AcDbArc
 50
354.0000000022097
 51
147.7960468850215
  0
ARC
  5
1278
330
1F
100
AcDbEntity
  8
SANINDUSA
100
AcDbCircle
 10
1614.598829388726
 20
935.9518375826612
 30
0.0
 40
0.005
100
AcDbArc
 50
17.18461050464584
 51
90.0
  0
ARC
  5
1279
330
1F
100
AcDbEntity
  8
SANINDUSA
100
AcDbCircle
 10
1614.59413824628
 20
935.9618375826611
 30
0.0
 40
0.005
100
AcDbArc
 50
212.1537759541711
 51
270.0
  0
ARC
  5
127A
330
1F
100
AcDbEntity
  8
SANINDUSA
100
AcDbCircle
 10
1614.284807805435
 20
935.9378703128959
 30
0.0
 40
0.0049999999999999
100
AcDbArc
 50
272.9550250414214
 51
342.8153894953542
  0
LINE
  5
127B
330
1F
100
AcDbEntity
  8
SANINDUSA
100
AcDbLine
 10
1614.294817781206
 20
935.9533148399318
 30
0.0
 11
1614.289584594206
 21
935.9363930556254
 31
0.0
  0
ARC
  5
127E
330
1F
100
AcDbEntity
  8
SANINDUSA
100
AcDbCircle
 10
1614.299594569977
 20
935.9518375826613
 30
0.0
 40
0.005
100
AcDbArc
 50
90.0
 51
162.8153894953541
  0
LINE
  5
1282
330
1F
100
AcDbEntity
  8
SANINDUSA
100
AcDbLine
 10
1614.603606177497
 20
935.9533148399318
 30
0.0
 11
1614.608839364497
 21
935.9363930556254
 31
0.0
  0
ENDSEC
  0
SECTION
  2
OBJECTS
  0
DICTIONARY
  5
C
330
0
100
AcDbDictionary
281
     1
  3
ACAD_COLOR
350
BA9
  3
ACAD_GROUP
350
D
  3
ACAD_LAYOUT
350
1A
  3
ACAD_MATERIAL
350
BA8
  3
ACAD_MLINESTYLE
350
17
  3
ACAD_PLOTSETTINGS
350
19
  3
ACAD_PLOTSTYLENAME
350
E
  3
ACAD_TABLESTYLE
350
BAA
  3
ACDBHEADERROUNDTRIPXREC
350
1536
  3
AcDbVariableDictionary
350
3D
  3
ASE_INDEX_DICTIONARY
350
B91
  0
DICTIONARY
  5
BA9
102
{ACAD_REACTORS
330
C
102
}
330
C
100
AcDbDictionary
281
     1
  0
DICTIONARY
  5
D
102
{ACAD_REACTORS
330
C
102
}
330
C
100
AcDbDictionary
281
     1
  0
DICTIONARY
  5
1A
102
{ACAD_REACTORS
330
C
102
}
330
C
100
AcDbDictionary
281
     1
  3
Layout1
350
1E
  3
Layout2
350
26
  3
Model
350
22
  0
DICTIONARY
  5
BA8
102
{ACAD_REACTORS
330
C
102
}
330
C
100
AcDbDictionary
281
     1
  0
DICTIONARY
  5
17
102
{ACAD_REACTORS
330
C
102
}
330
C
100
AcDbDictionary
281
     1
  3
Standard
350
18
  0
DICTIONARY
  5
19
102
{ACAD_REACTORS
330
C
102
}
330
C
100
AcDbDictionary
281
     1
  0
ACDBDICTIONARYWDFLT
  5
E
102
{ACAD_REACTORS
330
C
102
}
330
C
100
AcDbDictionary
281
     1
  3
Normal
350
F
100
AcDbDictionaryWithDefault
340
F
  0
DICTIONARY
  5
BAA
102
{ACAD_REACTORS
330
C
102
}
330
C
100
AcDbDictionary
281
     1
  3
Standard
350
BAB
  0
DICTIONARY
  5
1536
102
{ACAD_REACTORS
330
C
102
}
330
C
100
AcDbDictionary
281
     1
  0
DICTIONARY
  5
3D
102
{ACAD_REACTORS
330
C
102
}
330
C
100
AcDbDictionary
281
     1
  3
CTABLESTYLE
350
BB1
  3
DIMASSOC
350
3F
  3
HIDETEXT
350
3E
  3
PROJECTNAME
350
152F
  0
DICTIONARY
  5
B91
102
{ACAD_REACTORS
330
C
102
}
330
C
100
AcDbDictionary
281
     1
  3
ASEBlockHierarchyIndexRecord
350
B92
1001
DCO15
1040
1485069952.593
  0
LAYOUT
  5
1E
102
{ACAD_XDICTIONARY
360
1537
102
}
102
{ACAD_REACTORS
330
1A
102
}
330
1A
100
AcDbPlotSettings
  1

  2
Ploter HP500
  4

  6

 40
0.0
 41
0.0
 42
0.0
 43
0.0
 44
0.0
 45
0.0
 46
0.0
 47
0.0
 48
0.0
 49
0.0
140
0.0
141
0.0
142
1.0
143
1.0
 70
   688
 72
     0
 73
     0
 74
     5
  7
monochrome.ctb
 75
    16
147
1.0
148
0.0
149
0.0
100
AcDbLayout
  1
Layout1
 70
     1
 71
     1
 10
0.0
 20
0.0
 11
420.0
 21
297.0
 12
0.0
 22
0.0
 32
0.0
 14
1.000000000000000E+20
 24
1.000000000000000E+20
 34
1.000000000000000E+20
 15
-1.000000000000000E+20
 25
-1.000000000000000E+20
 35
-1.000000000000000E+20
146
0.0
 13
0.0
 23
0.0
 33
0.0
 16
1.0
 26
0.0
 36
0.0
 17
0.0
 27
1.0
 37
0.0
 76
     0
330
1B
  0
LAYOUT
  5
26
102
{ACAD_XDICTIONARY
360
153B
102
}
102
{ACAD_REACTORS
330
1A
102
}
330
1A
100
AcDbPlotSettings
  1

  2
Ploter HP500
  4

  6

 40
0.0
 41
0.0
 42
0.0
 43
0.0
 44
0.0
 45
0.0
 46
0.0
 47
0.0
 48
0.0
 49
0.0
140
0.0
141
0.0
142
1.0
143
1.0
 70
   688
 72
     0
 73
     0
 74
     5
  7
monochrome.ctb
 75
    16
147
1.0
148
0.0
149
0.0
100
AcDbLayout
  1
Layout2
 70
     1
 71
     2
 10
0.0
 20
0.0
 11
12.0
 21
9.0
 12
0.0
 22
0.0
 32
0.0
 14
0.0
 24
0.0
 34
0.0
 15
0.0
 25
0.0
 35
0.0
146
0.0
 13
0.0
 23
0.0
 33
0.0
 16
1.0
 26
0.0
 36
0.0
 17
0.0
 27
1.0
 37
0.0
 76
     0
330
23
  0
LAYOUT
  5
22
102
{ACAD_XDICTIONARY
360
1539
102
}
102
{ACAD_REACTORS
330
1A
102
}
330
1A
100
AcDbPlotSettings
  1

  2
Ploter HP500
  4
User268
  6

 40
4.995333194732666
 41
16.97565841674804
 42
4.995330810546875
 43
16.97567749023437
 44
209.9733276367187
 45
296.9259948730469
 46
0.0
 47
0.0
 48
0.0
 49
0.0
140
0.0
141
0.0
142
1.0
143
1.0
 70
 11952
 72
     1
 73
     1
 74
     0
  7
sanindusa.ctb
 75
     0
147
1.0
148
-427.5957866592534
149
7.362384574453926
100
AcDbLayout
  1
Model
 70
     1
 71
     0
 10
0.0
 20
0.0
 11
12.0
 21
9.0
 12
0.0
 22
0.0
 32
0.0
 14
0.0
 24
0.0
 34
0.0
 15
0.0
 25
0.0
 35
0.0
146
0.0
 13
0.0
 23
0.0
 33
0.0
 16
1.0
 26
0.0
 36
0.0
 17
0.0
 27
1.0
 37
0.0
 76
     0
330
1F
  0
MLINESTYLE
  5
18
102
{ACAD_REACTORS
330
17
102
}
330
17
100
AcDbMlineStyle
  2
STANDARD
 70
     0
  3

 62
   256
 51
90.0
 52
90.0
 71
     2
 49
0.5
 62
   256
  6
BYLAYER
 49
-0.5
 62
   256
  6
BYLAYER
  0
ACDBPLACEHOLDER
  5
F
102
{ACAD_REACTORS
330
E
102
}
330
E
  0
TABLESTYLE
  5
BAB
102
{ACAD_REACTORS
330
BAA
102
}
330
BAA
100
AcDbTableStyle
  3
Standard
 70
     0
 71
     0
 40
1.5
 41
1.5
280
     0
281
     0
  7
Standard
140
4.5
170
     2
 62
     0
 63
     7
283
     0
274
    -2
284
     1
 64
     0
275
    -2
285
     1
 65
     0
276
    -2
286
     1
 66
     0
277
    -2
287
     1
 67
     0
278
    -2
288
     1
 68
     0
279
    -2
289
     1
 69
     0
  7
Standard
140
6.0
170
     5
 62
     0
 63
     7
283
     0
274
    -2
284
     1
 64
     0
275
    -2
285
     1
 65
     0
276
    -2
286
     1
 66
     0
277
    -2
287
     1
 67
     0
278
    -2
288
     1
 68
     0
279
    -2
289
     1
 69
     0
  7
Standard
140
4.5
170
     5
 62
     0
 63
     7
283
     0
274
    -2
284
     1
 64
     0
275
    -2
285
     1
 65
     0
276
    -2
286
     1
 66
     0
277
    -2
287
     1
 67
     0
278
    -2
288
     1
 68
     0
279
    -2
289
     1
 69
     0
  0
DICTIONARYVAR
  5
BB1
102
{ACAD_REACTORS
330
3D
102
}
330
3D
100
DictionaryVariables
280
     0
  1
STANDARD
  0
DICTIONARYVAR
  5
3F
102
{ACAD_REACTORS
330
3D
102
}
330
3D
100
DictionaryVariables
280
     0
  1
2
  0
DICTIONARYVAR
  5
3E
102
{ACAD_REACTORS
330
3D
102
}
330
3D
100
DictionaryVariables
280
     0
  1
1
  0
DICTIONARYVAR
  5
152F
102
{ACAD_REACTORS
330
3D
102
}
330
3D
100
DictionaryVariables
280
     0
  1

  0
XRECORD
  5
B92
102
{ACAD_REACTORS
330
B91
102
}
330
B91
100
AcDbXrecord
280
     1
  0
DICTIONARY
  5
1537
330
1E
100
AcDbDictionary
280
     1
281
     1
  3
ACAD_XREC_ROUNDTRIP
360
1538
  0
DICTIONARY
  5
153B
330
26
100
AcDbDictionary
280
     1
281
     1
  3
ACAD_XREC_ROUNDTRIP
360
153C
  0
DICTIONARY
  5
1539
330
22
100
AcDbDictionary
280
     1
281
     1
  3
ACAD_XREC_ROUNDTRIP
360
153A
  0
XRECORD
  5
1538
102
{ACAD_REACTORS
330
1537
102
}
330
1537
100
AcDbXrecord
280
     1
102
SHADEPLOT
 70
     0
102
SHADEPLOTRESLEVEL
 70
     2
102
SHADEPLOTCUSTOMDPI
 70
   300
  0
XRECORD
  5
153C
102
{ACAD_REACTORS
330
153B
102
}
330
153B
100
AcDbXrecord
280
     1
102
SHADEPLOT
 70
     0
102
SHADEPLOTRESLEVEL
 70
     2
102
SHADEPLOTCUSTOMDPI
 70
   300
  0
XRECORD
  5
153A
102
{ACAD_REACTORS
330
1539
102
}
330
1539
100
AcDbXrecord
280
     1
102
SHADEPLOT
 70
     0
102
SHADEPLOTRESLEVEL
 70
     2
102
SHADEPLOTCUSTOMDPI
 70
   300
  0
ENDSEC
  0
EOF
